Home > Classical & Neo-Classical > Mozart, Wolfgang Amadeus >
Turkish March Guitar Tablature
 MOZART / Turski mars:    
  
Tabbed by Boris Zivkovic (walkaway)

(if u r confused with the tunning of this song send me an e_mail to:
  [email protected])


e|---------------------0----------7-5-4-5-7-5-4-5-8-
H|----------1--3-1-0-1----6-5-4-5-------------------
G|--4-2-1-2-----------------------------------------
D|--------------------------------------------------
A|--------------------------------------------------
E|--------------------------------------------------

-5-8-7-5---5-7-5---5-7-5--------
---------8-------8-------8-7-5--
-------------------------------- 2x
--------------------------------
--------------------------------
--------------------------------



e|--0-1-3-3-5-3-1-0-----0-1-3-3-5-3-1-0--------
H|------------------3-------------------3--1-3-
G|---------------------------------------------
D|---------------------------------------------
A|---------------------------------------------
E|---------------------------------------------

0-0-1-0------------0-0-1-0--------
--------3-1-0--1-3---------3-1-0--
----------------------------------
----------------------------------
----------------------------------
----------------------------------



e|---------------------0----------7-5-4-5-7-5-4-5-8--
H|----------1--3-1-0-1----6-5-4-5--------------------
G|--4-2-1-2------------------------------------------   
D|---------------------------------------------------
A|---------------------------------------------------
E|---------------------------------------------------

5-7-8-7-5---5--------------
----------9---5-6-5-1-0----
------------------------2--
---------------------------
---------------------------
---------------------------


e|--5-7-9--5-7-9-7-5-------5-7------5-7-9--5-7-9-7-5-
H|-------------------9-7-9-----9---------------------
G|-------------------------------9-------------------
D|---------------------------------------------------
A|---------------------------------------------------
E|---------------------------------------------------

----7-----5--
9-7---9------
--------9----
-------------
-------------
-------------



e|--5-7-9--5-7-9-7-5-------5-7------5---5-7-9--5-7-9-
H|-------------------9-7-9-----9------9--------------
G|-------------------------------9-------------------
D|---------------------------------------------------
A|---------------------------------------------------
E|---------------------------------------------------

7-5-----7-----5--
----9-7---9------
------------9----
-----------------
-----------------
-----------------
Previous guitar tablature in Mozart, Wolfgang Amadeus :: Next guitar tablature in Mozart, Wolfgang Amadeus