Home > Rock & Pop > Smashing Pumpkins >
Stumbeleine Guitar Tablature
Song: Stumbeleine
Band: Smashing Pumpkins
Tuning: Eb Ab Db Gb Bb eb
Tabbed By: [email protected]

|----------------------------------------|
|-7----7-----8-----7---------------------|
|---0----0-0----0-----0------------------|
|--0-0----0----0-0---0-0---0--0--0--0----|
|-9----9-----10----9------9--9--9--7-----|
|------------------------7--7--7--5------|

|----------------------------------------|
|-7----7-----8-----7---------------------|
|---0----0-0----0-----0------------------|
|--0-0----0----0-0---0-0---0--0--0--0----|
|-9----9-----10----9------9--9--9--7-----|
|------------------------7--7--7--5------|

|----------------------------------------|
|-7----7-----8-----7---------------------|
|---0----0-0----0-----0------------------|
|--0-0----0----0-0---0-0---0--0--0--0----|
|-9----9-----10----9------9--9--9--7-----|
|------------------------7--7--7--5------|

|---------------------------------------------------|
|---------------------------------------------------|
|---------------------------------------------------|
|---0-2---0-2-----0-0-----0-0-----0-0-----0-0-------|
|--5-5-5-5-5-5---5-5-5---5-5-5---5-5-5---5-5-5------|
|-3-----5-----5-8-----8-3-----3-5-----5-7-----7-----|

|---------------------------------------------------|
|---------------------------------------------------|
|---------------------------------------------------|
|---0-2---0-2-----0-0-----0-0-----0-0-----0-0-------|
|--5-5-5-5-5-5---5-5-5---5-5-5---5-5-5---5-5-5------|
|-3-----5-----5-8-----8-3-----3-5-----5-7-----7-----|


|---------------------------------------------------|
|---------------------------------------------------|
|---------------------------------------------------|
|---0-2---0-2-----0-0-----0-0-----0-0-----0-0-------|
|--5-5-5-5-5-5---5-5-5---5-5-5---5-5-5---5-5-5------|
|-3-----5-----5-8-----8-3-----3-5-----5-7-----7-----|

|----------------------------------------|
|-7----7-----8-----7---------------------|
|---0----0-0----0-----0------------------|
|--0-0----0----0-0---0-0---0--0--0--0----|
|-9----9-----10----9------9--9--9--7-----|
|------------------------7--7--7--5------|

|----------------------------------------|
|-7----7-----8-----7---------------------|
|---0----0-0----0-----0------------------|
|--0-0----0----0-0---0-0---0--0--0--0----|
|-9----9-----10----9------9--9--9--7-----|
|------------------------7--7--7--5------|

|----------------------------------------|
|-7----7-----8-----7---------------------|
|---0----0-0----0-----0------------------|
|--0-0----0----0-0---0-0---0--0--0--0----|
|-9----9-----10----9------9--9--9--7-----|
|------------------------7--7--7--5------|

|---------------------------------------------------|
|---------------------------------------------------|
|---------------------------------------------------|
|---0-2---0-2-----0-0-----0-0-----0-0-----0-0-------|
|--5-5-5-5-5-5---5-5-5---5-5-5---5-5-5---5-5-5------|
|-3-----5-----5-8-----8-3-----3-5-----5-7-----7-----|

|---------------------------------------------------|
|---------------------------------------------------|
|---------------------------------------------------|
|---0-2---0-2-----0-0-----0-0-----0-0-----0-0-------|
|--5-5-5-5-5-5---5-5-5---5-5-5---5-5-5---5-5-5------|
|-3-----5-----5-8-----8-3-----3-5-----5-7-----7-----|

|---------------------------------------------------|
|---------------------------------------------------|
|---------------------------------------------------|
|---0-2---0-2-----0-0-----0-0-----0-0-----0-0-------|
|--5-5-5-5-5-5---5-5-5---5-5-5---5-5-5---5-5-5------|
|-3-----5-----5-8-----8-3-----3-5-----5-7-----7-----|

|----------------------------------------------------|
|----------------------------------------------------|
|----------------------------------------------------|
|----0---0---0-0------0-----0----0-0---0-0-----0-0---|
|---9-9-5-5-5-5-5----9-----5----5-5-5-5-5-5---5-5-5--|
|-10---8---3-----3-10--10-8--8-3-----5-----5-7-------|

Repeat this acouple of times and place it in good order and it's not as hard as it sounds
Previous guitar tablature in Smashing Pumpkins :: Next guitar tablature in Smashing Pumpkins