Home > Rock & Pop > Linkin Park >
Lying From You Guitar Tablature
LINKIN PARK
LYING FROM YOU
METEORA

TABBED BY: Jordan Smith

I took a liking to this song, so I decided to take a stab at tabbing it =)

Tuning is Drop-D Flat, meaning you tune down a half step, and then drop your low E to D.  There are 

no strumming patterns below, you just have to listen and feel =)  Focus on the music, not the 

procedure!  

Comments/suggestions can go through the sites system or right to [email protected]  Please be 

constructive!  I tend to ignore those who live to be mean when they criticise.

Now that that is out of the way, let the tab begin!

Intro (0:11)
x's here are string noise, touch strings (do not fully depress) and hack away with your pick!
       (- - -Repeat 3x- - -)  
|------|-------------------|--------------------------|
|------|-------------------|--------------------------|
|------|-------------------|--------------------------|
|-xxxx-|-03-2-1-3-2-1-07---|-03-2-1-3-2-1-xxxx--------|
|-xxxx-|-03-2-1-3-2-1-07---|-03-2-1-3-2-1-xxxx--------|
|-xxxx-|-03-2-1-3-2-1-07---|-03-2-1-3-2-1-xxxx--------|

Verse (0:27)
(- - - - -Repeat 3x- - - - -) 
|---------------------------|-------------------------|
|---------------------------|-------------------------|
|---------------------------|-------------------------|
|-2-2-----------5-5---0-0-0-|-2-2------555-000--------|
|-2-2-----------5-5---0-0-0-|-2-2------555-000--------|
|-2-2-----------5-5---0-0-0-|-2-2------555-000--------|

Chorus (0:48)
Mute the x's
(- - - - - - - -Repeat 3x- - - - - - - -) 
|---------------------------------------|------------------------------------------|
|---------------------------------------|------------------------------------------|
|-9-9--/111111777/999------------------|-9-9--/111111777/999---------------------|
|-9-9---x-x-x--xxx-xxx--777777-222222---|-9-9---x-x-x--xxx-xxx--777777-222222---22-|
|-7-7--/9-9-9-555/777--777777-222222---|-7-7--/9-9-9-555/777--777777-222222---22-|
|-----------------------777777-222222---|-----------------------777777-222222---22-|


(Those are the three main riffs, and the rest of the song just has some alterations, so, you can use 

these top bits and figure it out, or keep following!)

Verse (1:12)
(- - - - -Repeat 3x- - - - -) 
|---------------------------|-------------------------|
|---------------------------|-------------------------|
|---------------------------|-------------------------|
|-2-2-----------5-5---0-0-0-|-2-2------555-000--------|
|-2-2-----------5-5---0-0-0-|-2-2------555-000--------|
|-2-2-----------5-5---0-0-0-|-2-2------555-000--------|


Chorus (1:36)
Mute the x's
(- - - - -Repeat 3x- - - - -) 
|--------------------------------------|------------------------------------------|
|--------------------------------------|------------------------------------------|
|-9-9--/111111777/999-----------------|-9-9--/111111777/999---------------------|
|-9-9---x-x-x--xxx-xxx--777777-222222--|-9-9---x-x-x--xxx-xxx--777777-777777--222-|
|-7-7--/9-9-9-555/777--777777-222222--|-7-7--/9-9-9-555/777--777777-777777--222-|
|-----------------------777777-222222--|-----------------------777777-777777--222-|

Bridge (2:03)
(- - - - - - - - - -Repeat 2x- - - - - - - - - - )
(- - -Repeat 3x- - -) 
|-------------------|----------------------------|
|-------------------|----------------------------|
|-------------------|----------------------------|
|-03-2-1-3-2-1-07---|-03-2-1-3-2-1---------------|
|-03-2-1-3-2-1-07---|-03-2-1-3-2-1---------------|
|-03-2-1-3-2-1-07---|-03-2-1-3-2-1---------------|

Chorus (2:27)
Mute the x's
(- - - - - - - -Repeat 3x- - - - - - - -) 
|---------------------------------------|---------------------------------------------|
|---------------------------------------|---------------------------------------------|
|-9-9--/111111777/999------------------|-9-9--/111111777/999------------------------|
|-9-9---x-x-x--xxx-xxx--777777-222222---|-9-9---x-x-x--xxx-xxx--777777-777777--222--22|
|-7-7--/9-9-9-555/777--777777-222222---|-7-7--/9-9-9-555/777--777777-777777--222--22|
|-----------------------777777-222222---|-----------------------777777-777777--222--22|
Previous guitar tablature in Linkin Park :: Next guitar tablature in Linkin Park